  0
SECTION
  2
HEADER
  9
$EXTMIN
 10
-0.344000
 20
-0.304000
  9
$EXTMAX
 10
0.230000
 20
0.345000
  9
$LIMMIN
 10
-0.344000
 20
-0.304000
  9
$LIMMAX
 10
0.230000
 20
0.345000
  9
$FILLMODE
 70
  1
  0
ENDSEC
  0
SECTION
  2
TABLES
  0
TABLE
  2
LTYPE
 70
  1
  0
LTYPE
  2
CONTINUOUS
 70
 64
  3
Solid line
 72
 65
 73
  0
 40
0.0
  0
ENDTAB
  0
TABLE
  2
LAYER
 70
 1
  0
LAYER
  2
0
 70
  0
 62
7
  6
CONTINUOUS
  0
LAYER
  2
gg1
 70
  0
 62
1
  6
CONTINUOUS
  0
ENDTAB
  0
TABLE
  2
STYLE
 70
  1
  0
STYLE
  2
STANDARD
 70
  0
 40
0.0
 41
1.0
 50
0.0
 71
  0
 42
0.2
  3
txt
  4

  0
ENDTAB
  0
ENDSEC
  0
SECTION
  2
BLOCKS
  0
BLOCK
  8
0
  2
D10
 70
64
 10
0.0
 20
0.0
  3
D10
  0
CIRCLE
  8
0
 10
0.000000
 20
0.000000
 40
0.002500
 0
ENDBLK
  8
0
  0
BLOCK
  8
0
  2
D11
 70
64
 10
0.0
 20
0.0
  3
D11
  0
CIRCLE
  8
0
 10
0.000000
 20
0.000000
 40
0.003000
 0
ENDBLK
  8
0
  0
ENDSEC
  0
SECTION
  2
ENTITIES
  0
POLYLINE
  8
gg1
 62
1
 40
0.000000
 41
0.000000
 66
  1
  0
VERTEX
  8
gg1
 10
0.228300
 20
0.003800
  0
VERTEX
  8
gg1
 10
0.228300
 20
0.003800
  0
VERTEX
  8
gg1
 10
0.228300
 20
0.003800
 42
0.252728
  0
VERTEX
  8
gg1
 10
0.128300
 20
0.188900
  0
VERTEX
  8
gg1
 10
0.128300
 20
0.188900
  0
SEQEND
  8
gg1
  0
POLYLINE
  8
gg1
 62
1
 40
0.000000
 41
0.000000
 66
  1
  0
VERTEX
  8
gg1
 10
-0.128300
 20
0.188900
  0
VERTEX
  8
gg1
 10
-0.128300
 20
0.188900
  0
VERTEX
  8
gg1
 10
-0.128300
 20
0.188900
 42
0.253517
  0
VERTEX
  8
gg1
 10
-0.228300
 20
0.003800
  0
VERTEX
  8
gg1
 10
-0.228300
 20
0.003800
  0
SEQEND
  8
gg1
  0
POLYLINE
  8
gg1
 62
1
 40
0.000000
 41
0.000000
 66
  1
  0
VERTEX
  8
gg1
 10
-0.335000
 20
-0.189000
  0
VERTEX
  8
gg1
 10
-0.240800
 20
-0.189000
  0
SEQEND
  8
gg1
  0
POLYLINE
  8
gg1
 62
1
 40
0.000000
 41
0.000000
 66
  1
  0
VERTEX
  8
gg1
 10
-0.335000
 20
0.189000
  0
VERTEX
  8
gg1
 10
-0.140500
 20
0.189000
  0
SEQEND
  8
gg1
  0
POLYLINE
  8
gg1
 62
1
 40
0.000000
 41
0.000000
 66
  1
  0
VERTEX
  8
gg1
 10
-0.325000
 20
-0.189000
  0
VERTEX
  8
gg1
 10
-0.325000
 20
-0.142000
  0
SEQEND
  8
gg1
  0
POLYLINE
  8
gg1
 62
1
 40
0.000000
 41
0.000000
 66
  1
  0
VERTEX
  8
gg1
 10
-0.325000
 20
0.110000
  0
VERTEX
  8
gg1
 10
-0.325000
 20
0.189000
  0
SEQEND
  8
gg1
  0
POLYLINE
  8
gg1
 62
1
 40
0.000000
 41
0.000000
 66
  1
  0
VERTEX
  8
gg1
 10
-0.325000
 20
-0.189000
  0
VERTEX
  8
gg1
 10
-0.308300
 20
-0.139000
  0
SEQEND
  8
gg1
  0
POLYLINE
  8
gg1
 62
1
 40
0.000000
 41
0.000000
 66
  1
  0
VERTEX
  8
gg1
 10
-0.341700
 20
-0.139000
  0
VERTEX
  8
gg1
 10
-0.325000
 20
-0.189000
  0
SEQEND
  8
gg1
  0
POLYLINE
  8
gg1
 62
1
 40
0.000000
 41
0.000000
 66
  1
  0
VERTEX
  8
gg1
 10
-0.341700
 20
0.139000
  0
VERTEX
  8
gg1
 10
-0.325000
 20
0.189000
  0
VERTEX
  8
gg1
 10
-0.308300
 20
0.139000
  0
SEQEND
  8
gg1
  0
POLYLINE
  8
gg1
 62
1
 40
0.000000
 41
0.000000
 66
  1
  0
VERTEX
  8
gg1
 10
0.128000
 20
0.201500
  0
VERTEX
  8
gg1
 10
0.128000
 20
0.260000
  0
SEQEND
  8
gg1
  0
POLYLINE
  8
gg1
 62
1
 40
0.000000
 41
0.000000
 66
  1
  0
VERTEX
  8
gg1
 10
-0.128000
 20
0.201500
  0
VERTEX
  8
gg1
 10
-0.128000
 20
0.260000
  0
SEQEND
  8
gg1
  0
POLYLINE
  8
gg1
 62
1
 40
0.000000
 41
0.000000
 66
  1
  0
VERTEX
  8
gg1
 10
-0.178000
 20
0.250000
  0
VERTEX
  8
gg1
 10
-0.128000
 20
0.250000
  0
SEQEND
  8
gg1
  0
POLYLINE
  8
gg1
 62
1
 40
0.000000
 41
0.000000
 66
  1
  0
VERTEX
  8
gg1
 10
0.128000
 20
0.250000
  0
VERTEX
  8
gg1
 10
0.178000
 20
0.250000
  0
SEQEND
  8
gg1
  0
POLYLINE
  8
gg1
 62
1
 40
0.000000
 41
0.000000
 66
  1
  0
VERTEX
  8
gg1
 10
-0.178000
 20
0.266700
  0
VERTEX
  8
gg1
 10
-0.128000
 20
0.250000
  0
SEQEND
  8
gg1
  0
POLYLINE
  8
gg1
 62
1
 40
0.000000
 41
0.000000
 66
  1
  0
VERTEX
  8
gg1
 10
-0.178000
 20
0.233300
  0
VERTEX
  8
gg1
 10
-0.128000
 20
0.250000
  0
SEQEND
  8
gg1
  0
POLYLINE
  8
gg1
 62
1
 40
0.000000
 41
0.000000
 66
  1
  0
VERTEX
  8
gg1
 10
0.128000
 20
0.250000
  0
VERTEX
  8
gg1
 10
0.178000
 20
0.233300
  0
SEQEND
  8
gg1
  0
POLYLINE
  8
gg1
 62
1
 40
0.000000
 41
0.000000
 66
  1
  0
VERTEX
  8
gg1
 10
0.128000
 20
0.250000
  0
VERTEX
  8
gg1
 10
0.178000
 20
0.266700
  0
SEQEND
  8
gg1
  0
POLYLINE
  8
gg1
 62
1
 40
0.000000
 41
0.000000
 66
  1
  0
VERTEX
  8
gg1
 10
0.228300
 20
-0.285000
  0
VERTEX
  8
gg1
 10
0.228300
 20
-0.201500
  0
SEQEND
  8
gg1
  0
POLYLINE
  8
gg1
 62
1
 40
0.000000
 41
0.000000
 66
  1
  0
VERTEX
  8
gg1
 10
-0.228300
 20
-0.285000
  0
VERTEX
  8
gg1
 10
-0.228300
 20
-0.201500
  0
SEQEND
  8
gg1
  0
POLYLINE
  8
gg1
 62
1
 40
0.000000
 41
0.000000
 66
  1
  0
VERTEX
  8
gg1
 10
0.123300
 20
-0.275000
  0
VERTEX
  8
gg1
 10
0.228300
 20
-0.275000
  0
SEQEND
  8
gg1
  0
POLYLINE
  8
gg1
 62
1
 40
0.000000
 41
0.000000
 66
  1
  0
VERTEX
  8
gg1
 10
-0.228300
 20
-0.275000
  0
VERTEX
  8
gg1
 10
-0.155300
 20
-0.275000
  0
SEQEND
  8
gg1
  0
POLYLINE
  8
gg1
 62
1
 40
0.000000
 41
0.000000
 66
  1
  0
VERTEX
  8
gg1
 10
0.178300
 20
-0.258300
  0
VERTEX
  8
gg1
 10
0.228300
 20
-0.275000
  0
SEQEND
  8
gg1
  0
POLYLINE
  8
gg1
 62
1
 40
0.000000
 41
0.000000
 66
  1
  0
VERTEX
  8
gg1
 10
0.178300
 20
-0.291700
  0
VERTEX
  8
gg1
 10
0.228300
 20
-0.275000
  0
SEQEND
  8
gg1
  0
POLYLINE
  8
gg1
 62
1
 40
0.000000
 41
0.000000
 66
  1
  0
VERTEX
  8
gg1
 10
-0.228300
 20
-0.275000
  0
VERTEX
  8
gg1
 10
-0.178300
 20
-0.291700
  0
SEQEND
  8
gg1
  0
POLYLINE
  8
gg1
 62
1
 40
0.000000
 41
0.000000
 66
  1
  0
VERTEX
  8
gg1
 10
-0.228300
 20
-0.275000
  0
VERTEX
  8
gg1
 10
-0.178300
 20
-0.258300
  0
SEQEND
  8
gg1
  0
POLYLINE
  8
gg1
 62
1
 40
0.000000
 41
0.000000
 66
  1
  0
VERTEX
  8
gg1
 10
0.228300
 20
-0.189000
  0
VERTEX
  8
gg1
 10
0.228300
 20
0.003800
  0
SEQEND
  8
gg1
  0
POLYLINE
  8
gg1
 62
1
 40
0.000000
 41
0.000000
 66
  1
  0
VERTEX
  8
gg1
 10
-0.228300
 20
-0.189000
  0
VERTEX
  8
gg1
 10
0.228300
 20
-0.189000
  0
SEQEND
  8
gg1
  0
POLYLINE
  8
gg1
 62
1
 40
0.000000
 41
0.000000
 66
  1
  0
VERTEX
  8
gg1
 10
-0.228300
 20
-0.189000
  0
VERTEX
  8
gg1
 10
-0.228300
 20
0.003800
  0
SEQEND
  8
gg1
  0
POLYLINE
  8
gg1
 62
1
 40
0.000000
 41
0.000000
 66
  1
  0
VERTEX
  8
gg1
 10
-0.128000
 20
0.189000
  0
VERTEX
  8
gg1
 10
0.128000
 20
0.189000
  0
SEQEND
  8
gg1
  0
POLYLINE
  8
gg1
 62
1
 40
0.000000
 41
0.000000
 66
  1
  0
VERTEX
  8
gg1
 10
-0.056900
 20
-0.189000
  0
VERTEX
  8
gg1
 10
-0.021900
 20
-0.189000
  0
SEQEND
  8
gg1
  0
POLYLINE
  8
gg1
 62
1
 40
0.000000
 41
0.000000
 66
  1
  0
VERTEX
  8
gg1
 10
-0.039400
 20
-0.206500
  0
VERTEX
  8
gg1
 10
-0.039400
 20
-0.171500
  0
SEQEND
  8
gg1
  0
POLYLINE
  8
gg1
 62
1
 40
0.000000
 41
0.000000
 66
  1
  0
VERTEX
  8
gg1
 10
-0.135600
 20
-0.189000
  0
VERTEX
  8
gg1
 10
-0.100600
 20
-0.189000
  0
SEQEND
  8
gg1
  0
POLYLINE
  8
gg1
 62
1
 40
0.000000
 41
0.000000
 66
  1
  0
VERTEX
  8
gg1
 10
-0.118100
 20
-0.206500
  0
VERTEX
  8
gg1
 10
-0.118100
 20
-0.171500
  0
SEQEND
  8
gg1
  0
POLYLINE
  8
gg1
 62
1
 40
0.000000
 41
0.000000
 66
  1
  0
VERTEX
  8
gg1
 10
-0.032000
 20
0.000000
  0
VERTEX
  8
gg1
 10
0.032000
 20
0.000000
  0
SEQEND
  8
gg1
  0
POLYLINE
  8
gg1
 62
1
 40
0.000000
 41
0.000000
 66
  1
  0
VERTEX
  8
gg1
 10
0.000000
 20
-0.032000
  0
VERTEX
  8
gg1
 10
0.000000
 20
0.032000
  0
SEQEND
  8
gg1
  0
POLYLINE
  8
gg1
 62
1
 40
0.000000
 41
0.000000
 66
  1
  0
VERTEX
  8
gg1
 10
-0.174700
 20
0.000000
  0
VERTEX
  8
gg1
 10
-0.110700
 20
0.000000
  0
SEQEND
  8
gg1
  0
POLYLINE
  8
gg1
 62
1
 40
0.000000
 41
0.000000
 66
  1
  0
VERTEX
  8
gg1
 10
-0.142700
 20
-0.032000
  0
VERTEX
  8
gg1
 10
-0.142700
 20
0.032000
  0
SEQEND
  8
gg1
  0
POLYLINE
  8
gg1
 62
1
 40
0.000000
 41
0.000000
 66
  1
  0
VERTEX
  8
gg1
 10
0.110700
 20
0.000000
  0
VERTEX
  8
gg1
 10
0.174700
 20
0.000000
  0
SEQEND
  8
gg1
  0
POLYLINE
  8
gg1
 62
1
 40
0.000000
 41
0.000000
 66
  1
  0
VERTEX
  8
gg1
 10
0.142700
 20
-0.032000
  0
VERTEX
  8
gg1
 10
0.142700
 20
0.032000
  0
SEQEND
  8
gg1
  0
POLYLINE
  8
gg1
 62
1
 40
0.000000
 41
0.000000
 66
  1
  0
VERTEX
  8
gg1
 10
-0.214400
 20
-0.189000
  0
VERTEX
  8
gg1
 10
-0.179400
 20
-0.189000
  0
SEQEND
  8
gg1
  0
POLYLINE
  8
gg1
 62
1
 40
0.000000
 41
0.000000
 66
  1
  0
VERTEX
  8
gg1
 10
-0.196900
 20
-0.206500
  0
VERTEX
  8
gg1
 10
-0.196900
 20
-0.171500
  0
SEQEND
  8
gg1
  0
POLYLINE
  8
gg1
 62
1
 40
0.000000
 41
0.000000
 66
  1
  0
VERTEX
  8
gg1
 10
0.021900
 20
-0.189000
  0
VERTEX
  8
gg1
 10
0.056900
 20
-0.189000
  0
SEQEND
  8
gg1
  0
POLYLINE
  8
gg1
 62
1
 40
0.000000
 41
0.000000
 66
  1
  0
VERTEX
  8
gg1
 10
0.039400
 20
-0.206500
  0
VERTEX
  8
gg1
 10
0.039400
 20
-0.171500
  0
SEQEND
  8
gg1
  0
POLYLINE
  8
gg1
 62
1
 40
0.000000
 41
0.000000
 66
  1
  0
VERTEX
  8
gg1
 10
0.100600
 20
-0.189000
  0
VERTEX
  8
gg1
 10
0.135600
 20
-0.189000
  0
SEQEND
  8
gg1
  0
POLYLINE
  8
gg1
 62
1
 40
0.000000
 41
0.000000
 66
  1
  0
VERTEX
  8
gg1
 10
0.118100
 20
-0.206500
  0
VERTEX
  8
gg1
 10
0.118100
 20
-0.171500
  0
SEQEND
  8
gg1
  0
POLYLINE
  8
gg1
 62
1
 40
0.000000
 41
0.000000
 66
  1
  0
VERTEX
  8
gg1
 10
0.179400
 20
-0.189000
  0
VERTEX
  8
gg1
 10
0.214400
 20
-0.189000
  0
SEQEND
  8
gg1
  0
POLYLINE
  8
gg1
 62
1
 40
0.000000
 41
0.000000
 66
  1
  0
VERTEX
  8
gg1
 10
0.196900
 20
-0.206500
  0
VERTEX
  8
gg1
 10
0.196900
 20
-0.171500
  0
SEQEND
  8
gg1
  0
POLYLINE
  8
gg1
 62
1
 40
0.000000
 41
0.000000
 66
  1
  0
VERTEX
  8
gg1
 10
-0.202500
 20
-0.059000
  0
VERTEX
  8
gg1
 10
-0.187500
 20
-0.059000
  0
SEQEND
  8
gg1
  0
POLYLINE
  8
gg1
 62
1
 40
0.000000
 41
0.000000
 66
  1
  0
VERTEX
  8
gg1
 10
-0.195000
 20
-0.066500
  0
VERTEX
  8
gg1
 10
-0.195000
 20
-0.051500
  0
SEQEND
  8
gg1
  0
POLYLINE
  8
gg1
 62
1
 40
0.000000
 41
0.000000
 66
  1
  0
VERTEX
  8
gg1
 10
0.036500
 20
0.075000
  0
VERTEX
  8
gg1
 10
0.051500
 20
0.075000
  0
SEQEND
  8
gg1
  0
POLYLINE
  8
gg1
 62
1
 40
0.000000
 41
0.000000
 66
  1
  0
VERTEX
  8
gg1
 10
0.044000
 20
0.067500
  0
VERTEX
  8
gg1
 10
0.044000
 20
0.082500
  0
SEQEND
  8
gg1
  0
POLYLINE
  8
gg1
 62
1
 40
0.000000
 41
0.000000
 66
  1
  0
VERTEX
  8
gg1
 10
-0.046500
 20
0.100000
  0
VERTEX
  8
gg1
 10
-0.031500
 20
0.100000
  0
SEQEND
  8
gg1
  0
POLYLINE
  8
gg1
 62
1
 40
0.000000
 41
0.000000
 66
  1
  0
VERTEX
  8
gg1
 10
-0.039000
 20
0.092500
  0
VERTEX
  8
gg1
 10
-0.039000
 20
0.107500
  0
SEQEND
  8
gg1
  0
POLYLINE
  8
gg1
 62
1
 40
0.000000
 41
0.000000
 66
  1
  0
VERTEX
  8
gg1
 10
-0.107500
 20
0.059000
  0
VERTEX
  8
gg1
 10
-0.092500
 20
0.059000
  0
SEQEND
  8
gg1
  0
POLYLINE
  8
gg1
 62
1
 40
0.000000
 41
0.000000
 66
  1
  0
VERTEX
  8
gg1
 10
-0.100000
 20
0.051500
  0
VERTEX
  8
gg1
 10
-0.100000
 20
0.066500
  0
SEQEND
  8
gg1
  0
POLYLINE
  8
gg1
 62
1
 40
0.000000
 41
0.000000
 66
  1
  0
VERTEX
  8
gg1
 10
-0.126500
 20
0.167000
  0
VERTEX
  8
gg1
 10
-0.111500
 20
0.167000
  0
SEQEND
  8
gg1
  0
POLYLINE
  8
gg1
 62
1
 40
0.000000
 41
0.000000
 66
  1
  0
VERTEX
  8
gg1
 10
-0.119000
 20
0.159500
  0
VERTEX
  8
gg1
 10
-0.119000
 20
0.174500
  0
SEQEND
  8
gg1
  0
POLYLINE
  8
gg1
 62
1
 40
0.000000
 41
0.000000
 66
  1
  0
VERTEX
  8
gg1
 10
0.032500
 20
0.166000
  0
VERTEX
  8
gg1
 10
0.047500
 20
0.166000
  0
SEQEND
  8
gg1
  0
POLYLINE
  8
gg1
 62
1
 40
0.000000
 41
0.000000
 66
  1
  0
VERTEX
  8
gg1
 10
0.040000
 20
0.158500
  0
VERTEX
  8
gg1
 10
0.040000
 20
0.173500
  0
SEQEND
  8
gg1
  0
POLYLINE
  8
gg1
 62
1
 40
0.000000
 41
0.000000
 66
  1
  0
VERTEX
  8
gg1
 10
0.111500
 20
0.167000
  0
VERTEX
  8
gg1
 10
0.126500
 20
0.167000
  0
SEQEND
  8
gg1
  0
POLYLINE
  8
gg1
 62
1
 40
0.000000
 41
0.000000
 66
  1
  0
VERTEX
  8
gg1
 10
0.119000
 20
0.159500
  0
VERTEX
  8
gg1
 10
0.119000
 20
0.174500
  0
SEQEND
  8
gg1
  0
POLYLINE
  8
gg1
 62
1
 40
0.000000
 41
0.000000
 66
  1
  0
VERTEX
  8
gg1
 10
-0.031500
 20
-0.083000
  0
VERTEX
  8
gg1
 10
-0.016500
 20
-0.083000
  0
SEQEND
  8
gg1
  0
POLYLINE
  8
gg1
 62
1
 40
0.000000
 41
0.000000
 66
  1
  0
VERTEX
  8
gg1
 10
-0.024000
 20
-0.090500
  0
VERTEX
  8
gg1
 10
-0.024000
 20
-0.075500
  0
SEQEND
  8
gg1
  0
POLYLINE
  8
gg1
 62
1
 40
0.000000
 41
0.000000
 66
  1
  0
VERTEX
  8
gg1
 10
-0.072500
 20
-0.142000
  0
VERTEX
  8
gg1
 10
-0.057500
 20
-0.142000
  0
SEQEND
  8
gg1
  0
POLYLINE
  8
gg1
 62
1
 40
0.000000
 41
0.000000
 66
  1
  0
VERTEX
  8
gg1
 10
-0.065000
 20
-0.149500
  0
VERTEX
  8
gg1
 10
-0.065000
 20
-0.134500
  0
SEQEND
  8
gg1
  0
POLYLINE
  8
gg1
 62
1
 40
0.000000
 41
0.000000
 66
  1
  0
VERTEX
  8
gg1
 10
0.053500
 20
-0.138000
  0
VERTEX
  8
gg1
 10
0.068500
 20
-0.138000
  0
SEQEND
  8
gg1
  0
POLYLINE
  8
gg1
 62
1
 40
0.000000
 41
0.000000
 66
  1
  0
VERTEX
  8
gg1
 10
0.061000
 20
-0.145500
  0
VERTEX
  8
gg1
 10
0.061000
 20
-0.130500
  0
SEQEND
  8
gg1
  0
POLYLINE
  8
gg1
 62
1
 40
0.000000
 41
0.000000
 66
  1
  0
VERTEX
  8
gg1
 10
0.139500
 20
-0.099000
  0
VERTEX
  8
gg1
 10
0.154500
 20
-0.099000
  0
SEQEND
  8
gg1
  0
POLYLINE
  8
gg1
 62
1
 40
0.000000
 41
0.000000
 66
  1
  0
VERTEX
  8
gg1
 10
0.147000
 20
-0.106500
  0
VERTEX
  8
gg1
 10
0.147000
 20
-0.091500
  0
SEQEND
  8
gg1
  0
POLYLINE
  8
gg1
 62
1
 40
0.000000
 41
0.000000
 66
  1
  0
VERTEX
  8
gg1
 10
-0.209500
 20
-0.122000
  0
VERTEX
  8
gg1
 10
-0.194500
 20
-0.122000
  0
SEQEND
  8
gg1
  0
POLYLINE
  8
gg1
 62
1
 40
0.000000
 41
0.000000
 66
  1
  0
VERTEX
  8
gg1
 10
-0.202000
 20
-0.129500
  0
VERTEX
  8
gg1
 10
-0.202000
 20
-0.114500
  0
SEQEND
  8
gg1
  0
POLYLINE
  8
gg1
 62
1
 40
0.000000
 41
0.000000
 66
  1
  0
VERTEX
  8
gg1
 10
-0.189500
 20
-0.143000
  0
VERTEX
  8
gg1
 10
-0.174500
 20
-0.143000
  0
SEQEND
  8
gg1
  0
POLYLINE
  8
gg1
 62
1
 40
0.000000
 41
0.000000
 66
  1
  0
VERTEX
  8
gg1
 10
-0.182000
 20
-0.150500
  0
VERTEX
  8
gg1
 10
-0.182000
 20
-0.135500
  0
SEQEND
  8
gg1
  0
POLYLINE
  8
gg1
 62
1
 40
0.000000
 41
0.000000
 66
  1
  0
VERTEX
  8
gg1
 10
-0.140500
 20
-0.142000
  0
VERTEX
  8
gg1
 10
-0.125500
 20
-0.142000
  0
SEQEND
  8
gg1
  0
POLYLINE
  8
gg1
 62
1
 40
0.000000
 41
0.000000
 66
  1
  0
VERTEX
  8
gg1
 10
-0.133000
 20
-0.149500
  0
VERTEX
  8
gg1
 10
-0.133000
 20
-0.134500
  0
SEQEND
  8
gg1
  0
POLYLINE
  8
gg1
 62
1
 40
0.000000
 41
0.000000
 66
  1
  0
VERTEX
  8
gg1
 10
-0.111500
 20
-0.142000
  0
VERTEX
  8
gg1
 10
-0.096500
 20
-0.142000
  0
SEQEND
  8
gg1
  0
POLYLINE
  8
gg1
 62
1
 40
0.000000
 41
0.000000
 66
  1
  0
VERTEX
  8
gg1
 10
-0.104000
 20
-0.149500
  0
VERTEX
  8
gg1
 10
-0.104000
 20
-0.134500
  0
SEQEND
  8
gg1
  0
POLYLINE
  8
gg1
 62
1
 40
0.000000
 41
0.000000
 66
  1
  0
VERTEX
  8
gg1
 10
-0.038500
 20
-0.059000
  0
VERTEX
  8
gg1
 10
-0.023500
 20
-0.059000
  0
SEQEND
  8
gg1
  0
POLYLINE
  8
gg1
 62
1
 40
0.000000
 41
0.000000
 66
  1
  0
VERTEX
  8
gg1
 10
-0.031000
 20
-0.066500
  0
VERTEX
  8
gg1
 10
-0.031000
 20
-0.051500
  0
SEQEND
  8
gg1
  0
POLYLINE
  8
gg1
 62
1
 40
0.000000
 41
0.000000
 66
  1
  0
VERTEX
  8
gg1
 10
-0.060500
 20
-0.069000
  0
VERTEX
  8
gg1
 10
-0.045500
 20
-0.069000
  0
SEQEND
  8
gg1
  0
POLYLINE
  8
gg1
 62
1
 40
0.000000
 41
0.000000
 66
  1
  0
VERTEX
  8
gg1
 10
-0.053000
 20
-0.076500
  0
VERTEX
  8
gg1
 10
-0.053000
 20
-0.061500
  0
SEQEND
  8
gg1
  0
POLYLINE
  8
gg1
 62
1
 40
0.000000
 41
0.000000
 66
  1
  0
VERTEX
  8
gg1
 10
0.184500
 20
-0.070000
  0
VERTEX
  8
gg1
 10
0.199500
 20
-0.070000
  0
SEQEND
  8
gg1
  0
POLYLINE
  8
gg1
 62
1
 40
0.000000
 41
0.000000
 66
  1
  0
VERTEX
  8
gg1
 10
0.192000
 20
-0.077500
  0
VERTEX
  8
gg1
 10
0.192000
 20
-0.062500
  0
SEQEND
  8
gg1
  0
POLYLINE
  8
gg1
 62
1
 40
0.000000
 41
0.000000
 66
  1
  0
VERTEX
  8
gg1
 10
-0.199500
 20
0.057000
  0
VERTEX
  8
gg1
 10
-0.184500
 20
0.057000
  0
SEQEND
  8
gg1
  0
POLYLINE
  8
gg1
 62
1
 40
0.000000
 41
0.000000
 66
  1
  0
VERTEX
  8
gg1
 10
-0.192000
 20
0.049500
  0
VERTEX
  8
gg1
 10
-0.192000
 20
0.064500
  0
SEQEND
  8
gg1
  0
POLYLINE
  8
gg1
 62
1
 40
0.000000
 41
0.000000
 66
  1
  0
VERTEX
  8
gg1
 10
0.184500
 20
0.057000
  0
VERTEX
  8
gg1
 10
0.199500
 20
0.057000
  0
SEQEND
  8
gg1
  0
POLYLINE
  8
gg1
 62
1
 40
0.000000
 41
0.000000
 66
  1
  0
VERTEX
  8
gg1
 10
0.192000
 20
0.049500
  0
VERTEX
  8
gg1
 10
0.192000
 20
0.064500
  0
SEQEND
  8
gg1
  0
POLYLINE
  8
gg1
 62
1
 40
0.000000
 41
0.000000
 66
  1
  0
VERTEX
  8
gg1
 10
-0.305700
 20
-0.126000
  0
VERTEX
  8
gg1
 10
-0.299000
 20
-0.119300
  0
VERTEX
  8
gg1
 10
-0.299000
 20
-0.106000
  0
VERTEX
  8
gg1
 10
-0.305700
 20
-0.099300
  0
VERTEX
  8
gg1
 10
-0.332300
 20
-0.099300
  0
VERTEX
  8
gg1
 10
-0.339000
 20
-0.106000
  0
VERTEX
  8
gg1
 10
-0.339000
 20
-0.119300
  0
VERTEX
  8
gg1
 10
-0.332300
 20
-0.126000
  0
VERTEX
  8
gg1
 10
-0.325700
 20
-0.126000
  0
VERTEX
  8
gg1
 10
-0.319000
 20
-0.119300
  0
VERTEX
  8
gg1
 10
-0.319000
 20
-0.099300
  0
SEQEND
  8
gg1
  0
POLYLINE
  8
gg1
 62
1
 40
0.000000
 41
0.000000
 66
  1
  0
VERTEX
  8
gg1
 10
-0.299000
 20
-0.086000
  0
VERTEX
  8
gg1
 10
-0.305700
 20
-0.086000
  0
VERTEX
  8
gg1
 10
-0.305700
 20
-0.079300
  0
VERTEX
  8
gg1
 10
-0.299000
 20
-0.079300
  0
VERTEX
  8
gg1
 10
-0.299000
 20
-0.086000
  0
SEQEND
  8
gg1
  0
POLYLINE
  8
gg1
 62
1
 40
0.000000
 41
0.000000
 66
  1
  0
VERTEX
  8
gg1
 10
-0.339000
 20
-0.026000
  0
VERTEX
  8
gg1
 10
-0.332300
 20
-0.039300
  0
VERTEX
  8
gg1
 10
-0.319000
 20
-0.052700
  0
VERTEX
  8
gg1
 10
-0.305700
 20
-0.052700
  0
VERTEX
  8
gg1
 10
-0.299000
 20
-0.046000
  0
VERTEX
  8
gg1
 10
-0.299000
 20
-0.032700
  0
VERTEX
  8
gg1
 10
-0.305700
 20
-0.026000
  0
VERTEX
  8
gg1
 10
-0.312300
 20
-0.026000
  0
VERTEX
  8
gg1
 10
-0.319000
 20
-0.032700
  0
VERTEX
  8
gg1
 10
-0.319000
 20
-0.052700
  0
SEQEND
  8
gg1
  0
POLYLINE
  8
gg1
 62
1
 40
0.000000
 41
0.000000
 66
  1
  0
VERTEX
  8
gg1
 10
-0.332300
 20
-0.012700
  0
VERTEX
  8
gg1
 10
-0.339000
 20
-0.006000
  0
VERTEX
  8
gg1
 10
-0.339000
 20
0.007300
  0
VERTEX
  8
gg1
 10
-0.332300
 20
0.014000
  0
VERTEX
  8
gg1
 10
-0.305700
 20
0.014000
  0
VERTEX
  8
gg1
 10
-0.299000
 20
0.007300
  0
VERTEX
  8
gg1
 10
-0.299000
 20
-0.006000
  0
VERTEX
  8
gg1
 10
-0.305700
 20
-0.012700
  0
VERTEX
  8
gg1
 10
-0.332300
 20
-0.012700
  0
SEQEND
  8
gg1
  0
POLYLINE
  8
gg1
 62
1
 40
0.000000
 41
0.000000
 66
  1
  0
VERTEX
  8
gg1
 10
-0.299000
 20
0.027300
  0
VERTEX
  8
gg1
 10
-0.325700
 20
0.027300
  0
VERTEX
  8
gg1
 10
-0.325700
 20
0.034000
  0
VERTEX
  8
gg1
 10
-0.319000
 20
0.040600
  0
VERTEX
  8
gg1
 10
-0.299000
 20
0.040600
  0
VERTEX
  8
gg1
 10
-0.319000
 20
0.040600
  0
VERTEX
  8
gg1
 10
-0.325700
 20
0.047300
  0
VERTEX
  8
gg1
 10
-0.319000
 20
0.054000
  0
VERTEX
  8
gg1
 10
-0.299000
 20
0.054000
  0
SEQEND
  8
gg1
  0
POLYLINE
  8
gg1
 62
1
 40
0.000000
 41
0.000000
 66
  1
  0
VERTEX
  8
gg1
 10
-0.299000
 20
0.067300
  0
VERTEX
  8
gg1
 10
-0.325700
 20
0.067300
  0
VERTEX
  8
gg1
 10
-0.325700
 20
0.074000
  0
VERTEX
  8
gg1
 10
-0.319000
 20
0.080600
  0
VERTEX
  8
gg1
 10
-0.299000
 20
0.080600
  0
VERTEX
  8
gg1
 10
-0.319000
 20
0.080600
  0
VERTEX
  8
gg1
 10
-0.325700
 20
0.087300
  0
VERTEX
  8
gg1
 10
-0.319000
 20
0.094000
  0
VERTEX
  8
gg1
 10
-0.299000
 20
0.094000
  0
SEQEND
  8
gg1
  0
POLYLINE
  8
gg1
 62
1
 40
0.000000
 41
0.000000
 66
  1
  0
VERTEX
  8
gg1
 10
-0.099300
 20
0.342000
  0
VERTEX
  8
gg1
 10
-0.112600
 20
0.335300
  0
VERTEX
  8
gg1
 10
-0.126000
 20
0.322000
  0
VERTEX
  8
gg1
 10
-0.126000
 20
0.308700
  0
VERTEX
  8
gg1
 10
-0.119300
 20
0.302000
  0
VERTEX
  8
gg1
 10
-0.106000
 20
0.302000
  0
VERTEX
  8
gg1
 10
-0.099300
 20
0.308700
  0
VERTEX
  8
gg1
 10
-0.099300
 20
0.315300
  0
VERTEX
  8
gg1
 10
-0.106000
 20
0.322000
  0
VERTEX
  8
gg1
 10
-0.126000
 20
0.322000
  0
SEQEND
  8
gg1
  0
POLYLINE
  8
gg1
 62
1
 40
0.000000
 41
0.000000
 66
  1
  0
VERTEX
  8
gg1
 10
-0.086000
 20
0.302000
  0
VERTEX
  8
gg1
 10
-0.086000
 20
0.308700
  0
VERTEX
  8
gg1
 10
-0.079300
 20
0.308700
  0
VERTEX
  8
gg1
 10
-0.079300
 20
0.302000
  0
VERTEX
  8
gg1
 10
-0.086000
 20
0.302000
  0
SEQEND
  8
gg1
  0
POLYLINE
  8
gg1
 62
1
 40
0.000000
 41
0.000000
 66
  1
  0
VERTEX
  8
gg1
 10
-0.026000
 20
0.342000
  0
VERTEX
  8
gg1
 10
-0.052700
 20
0.342000
  0
VERTEX
  8
gg1
 10
-0.052700
 20
0.322000
  0
VERTEX
  8
gg1
 10
-0.039300
 20
0.328600
  0
VERTEX
  8
gg1
 10
-0.032700
 20
0.328600
  0
VERTEX
  8
gg1
 10
-0.026000
 20
0.322000
  0
VERTEX
  8
gg1
 10
-0.026000
 20
0.308700
  0
VERTEX
  8
gg1
 10
-0.032700
 20
0.302000
  0
VERTEX
  8
gg1
 10
-0.046000
 20
0.302000
  0
VERTEX
  8
gg1
 10
-0.052700
 20
0.308700
  0
SEQEND
  8
gg1
  0
POLYLINE
  8
gg1
 62
1
 40
0.000000
 41
0.000000
 66
  1
  0
VERTEX
  8
gg1
 10
-0.012700
 20
0.335300
  0
VERTEX
  8
gg1
 10
-0.006000
 20
0.342000
  0
VERTEX
  8
gg1
 10
0.007300
 20
0.342000
  0
VERTEX
  8
gg1
 10
0.014000
 20
0.335300
  0
VERTEX
  8
gg1
 10
0.014000
 20
0.308700
  0
VERTEX
  8
gg1
 10
0.007300
 20
0.302000
  0
VERTEX
  8
gg1
 10
-0.006000
 20
0.302000
  0
VERTEX
  8
gg1
 10
-0.012700
 20
0.308700
  0
VERTEX
  8
gg1
 10
-0.012700
 20
0.335300
  0
SEQEND
  8
gg1
  0
POLYLINE
  8
gg1
 62
1
 40
0.000000
 41
0.000000
 66
  1
  0
VERTEX
  8
gg1
 10
0.027300
 20
0.302000
  0
VERTEX
  8
gg1
 10
0.027300
 20
0.328600
  0
VERTEX
  8
gg1
 10
0.034000
 20
0.328600
  0
VERTEX
  8
gg1
 10
0.040600
 20
0.322000
  0
VERTEX
  8
gg1
 10
0.040600
 20
0.302000
  0
VERTEX
  8
gg1
 10
0.040600
 20
0.322000
  0
VERTEX
  8
gg1
 10
0.047300
 20
0.328600
  0
VERTEX
  8
gg1
 10
0.054000
 20
0.322000
  0
VERTEX
  8
gg1
 10
0.054000
 20
0.302000
  0
SEQEND
  8
gg1
  0
POLYLINE
  8
gg1
 62
1
 40
0.000000
 41
0.000000
 66
  1
  0
VERTEX
  8
gg1
 10
0.067300
 20
0.302000
  0
VERTEX
  8
gg1
 10
0.067300
 20
0.328600
  0
VERTEX
  8
gg1
 10
0.074000
 20
0.328600
  0
VERTEX
  8
gg1
 10
0.080600
 20
0.322000
  0
VERTEX
  8
gg1
 10
0.080600
 20
0.302000
  0
VERTEX
  8
gg1
 10
0.080600
 20
0.322000
  0
VERTEX
  8
gg1
 10
0.087300
 20
0.328600
  0
VERTEX
  8
gg1
 10
0.094000
 20
0.322000
  0
VERTEX
  8
gg1
 10
0.094000
 20
0.302000
  0
SEQEND
  8
gg1
  0
POLYLINE
  8
gg1
 62
1
 40
0.000000
 41
0.000000
 66
  1
  0
VERTEX
  8
gg1
 10
-0.139300
 20
-0.301000
  0
VERTEX
  8
gg1
 10
-0.126000
 20
-0.301000
  0
VERTEX
  8
gg1
 10
-0.132600
 20
-0.301000
  0
VERTEX
  8
gg1
 10
-0.132600
 20
-0.261000
  0
VERTEX
  8
gg1
 10
-0.139300
 20
-0.267700
  0
SEQEND
  8
gg1
  0
POLYLINE
  8
gg1
 62
1
 40
0.000000
 41
0.000000
 66
  1
  0
VERTEX
  8
gg1
 10
-0.106000
 20
-0.301000
  0
VERTEX
  8
gg1
 10
-0.092600
 20
-0.301000
  0
VERTEX
  8
gg1
 10
-0.099300
 20
-0.301000
  0
VERTEX
  8
gg1
 10
-0.099300
 20
-0.261000
  0
VERTEX
  8
gg1
 10
-0.106000
 20
-0.267700
  0
SEQEND
  8
gg1
  0
POLYLINE
  8
gg1
 62
1
 40
0.000000
 41
0.000000
 66
  1
  0
VERTEX
  8
gg1
 10
-0.072600
 20
-0.301000
  0
VERTEX
  8
gg1
 10
-0.072600
 20
-0.294300
  0
VERTEX
  8
gg1
 10
-0.066000
 20
-0.294300
  0
VERTEX
  8
gg1
 10
-0.066000
 20
-0.301000
  0
VERTEX
  8
gg1
 10
-0.072600
 20
-0.301000
  0
SEQEND
  8
gg1
  0
POLYLINE
  8
gg1
 62
1
 40
0.000000
 41
0.000000
 66
  1
  0
VERTEX
  8
gg1
 10
-0.012700
 20
-0.261000
  0
VERTEX
  8
gg1
 10
-0.026000
 20
-0.267700
  0
VERTEX
  8
gg1
 10
-0.039300
 20
-0.281000
  0
VERTEX
  8
gg1
 10
-0.039300
 20
-0.294300
  0
VERTEX
  8
gg1
 10
-0.032700
 20
-0.301000
  0
VERTEX
  8
gg1
 10
-0.019300
 20
-0.301000
  0
VERTEX
  8
gg1
 10
-0.012700
 20
-0.294300
  0
VERTEX
  8
gg1
 10
-0.012700
 20
-0.287700
  0
VERTEX
  8
gg1
 10
-0.019300
 20
-0.281000
  0
VERTEX
  8
gg1
 10
-0.039300
 20
-0.281000
  0
SEQEND
  8
gg1
  0
POLYLINE
  8
gg1
 62
1
 40
0.000000
 41
0.000000
 66
  1
  0
VERTEX
  8
gg1
 10
0.000700
 20
-0.267700
  0
VERTEX
  8
gg1
 10
0.007300
 20
-0.261000
  0
VERTEX
  8
gg1
 10
0.020700
 20
-0.261000
  0
VERTEX
  8
gg1
 10
0.027300
 20
-0.267700
  0
VERTEX
  8
gg1
 10
0.027300
 20
-0.294300
  0
VERTEX
  8
gg1
 10
0.020700
 20
-0.301000
  0
VERTEX
  8
gg1
 10
0.007300
 20
-0.301000
  0
VERTEX
  8
gg1
 10
0.000700
 20
-0.294300
  0
VERTEX
  8
gg1
 10
0.000700
 20
-0.267700
  0
SEQEND
  8
gg1
  0
POLYLINE
  8
gg1
 62
1
 40
0.000000
 41
0.000000
 66
  1
  0
VERTEX
  8
gg1
 10
0.040600
 20
-0.301000
  0
VERTEX
  8
gg1
 10
0.040600
 20
-0.274300
  0
VERTEX
  8
gg1
 10
0.047300
 20
-0.274300
  0
VERTEX
  8
gg1
 10
0.054000
 20
-0.281000
  0
VERTEX
  8
gg1
 10
0.054000
 20
-0.301000
  0
VERTEX
  8
gg1
 10
0.054000
 20
-0.281000
  0
VERTEX
  8
gg1
 10
0.060600
 20
-0.274300
  0
VERTEX
  8
gg1
 10
0.067300
 20
-0.281000
  0
VERTEX
  8
gg1
 10
0.067300
 20
-0.301000
  0
SEQEND
  8
gg1
  0
POLYLINE
  8
gg1
 62
1
 40
0.000000
 41
0.000000
 66
  1
  0
VERTEX
  8
gg1
 10
0.080600
 20
-0.301000
  0
VERTEX
  8
gg1
 10
0.080600
 20
-0.274300
  0
VERTEX
  8
gg1
 10
0.087300
 20
-0.274300
  0
VERTEX
  8
gg1
 10
0.094000
 20
-0.281000
  0
VERTEX
  8
gg1
 10
0.094000
 20
-0.301000
  0
VERTEX
  8
gg1
 10
0.094000
 20
-0.281000
  0
VERTEX
  8
gg1
 10
0.100600
 20
-0.274300
  0
VERTEX
  8
gg1
 10
0.107300
 20
-0.281000
  0
VERTEX
  8
gg1
 10
0.107300
 20
-0.301000
  0
SEQEND
  8
gg1
  0
ENDSEC
  0
EOF
